Este año nos dimos a la tarea de seleccionar de entre varios paises a las mejores mujeres requintistas. Inicialmente se pensaba que la participación femenina estaría escasa, pero grande fue la sorpresa al descubrir que hay mucha calidad interpretativa para este gran intrumento de parte del sector femenino.

REQUINTOS DEL TRÍO LOS TRES REYES
Aventurera - Los tres reyes
Escrito por Victor Armijos   
Domingo, 04 de Marzo de 2012 11:12
Última actualización el Viernes, 04 de Mayo de 2012 21:54
 
Poquita fé - Los tres reyes
Escrito por Victor Armijos   
Domingo, 04 de Marzo de 2012 11:12




PRIMERA GUITARRA AL AIRE

E |----------------|----------------|----------------|----------------|-------|
B |-----------0----|----------------|-----------1----|--2-------------|-------|
G |--------0-------|--1-------------|--------2-------|-----3----------|-------|
D |-----0----------|-----3--0-------|-----2----------|--------4--2----|-------|
A |--2-------------|-----------2----|--3-------------|----------------|-------|
E |----------------|----------------|----------------|----------------|-------|


-------|-------|--------------------------7--7--8--5--7-------------|
-------|-------|--------------------------------------------8--8----|
-------|-------|----------------------------------------------------|
-------|-------|----------------------------------------------------|
-------|-------|----------------------------------------------------|
-------|-------|----------------------------------------------------|


----------------------------------------------------||
--10-7--8-------------------------------------------||
--------------7--7--9--6--7-------------------------||
----------------------------------------------------||
----------------------------------------------------||
----------------------------------------------------||


SEGUNDA GUITARRA AL AIRE

E |----------------|----------------|----------------|
B |----------------|----------------|----------------|
G |-----------0----|----------------|-----------2----|
D |--------0-------|--3--0----------|--------2-------|
A |-----2----------|--------2-------|--0--3----------|
E |--3-------------|-----------4----|----------------|


--------------------------------------------------------------------------------
--------------------------------------------------------------------------------
-----3--------------------------------------------------------------------------
--------------------------4-----------------------2-----------------------------
--------------------------------------------------------------------------4-----
--------------------------------------------------------------------------------


--------------------|-------|-------|-------|
--------------------|-------|-------|-------|
--------------------|-------|-------|-------|
--------------------|-------|-------|-------|
--------------------|-------|-------|-------|
--------------------|-------|-------|-------|


--------------------------3--3--5--2--3-------------|
--------------------------------------------3--3----|
----------------------------------------------------|
----------------------------------------------------|
----------------------------------------------------|
----------------------------------------------------|


----------------------------------------------------||
--5--2--3-------------------------------------------||
--------------4--4--5--3--4-------------------------||
----------------------------------------------------||
----------------------------------------------------||
----------------------------------------------------||


ADORNOS de POQUITA FE

Última actualización el Lunes, 14 de Mayo de 2012 20:15
 
Sombas (Bolero) - Los tres reyes
Escrito por Victor Armijos   
Domingo, 04 de Marzo de 2012 11:12

En cámara lenta
Última actualización el Miércoles, 02 de Mayo de 2012 23:24
 
Amor perfecto - Los tres reyes
Escrito por Victor Armijos   
Domingo, 04 de Marzo de 2012 11:12

Amor Perfecto (Los Tres Reyes)
AUTOR: Enrique Koki Navarro


a---------------------------------------
E--------------------------------------
C-----------------------3-3--------------
G---3-3--2-2-----------------2-2---------
D-------------5-5--4-4-----------5-5-4-4--
A---------------------------------------


a----------------------4-4-3-3-1-1-0-0--
E---4-4-3-3-1-1-0-0---------------------
C--------------------------------------
G---------------------------------------
D---------------------------------------
A---------------------------------------


a---------------------2-2-1-1-----------
E--2-2--1-1--------------------4-4-3-3--
C------------3-3-2-2-------------------
G--------------------------------------
D---------------------------------------
A---------------------------------------


a--7-7-6-6------------------------------
E-----------9-9-8-8---5-5-4-4-------------
C------------------------------6-6-5-5-----
G---------------------------------------
D---------------------------------------
A------------------------------------


 

a---5-5-4-4-----------10-10-9-9--------
E-----------7-7-6-6--------------12-12-11-11--
C--------------------------------------
G---------------------------------------
D---------------------------------------
A---------------------------------------


a----3-3-2-2------------8-8-7-7-----------
E-------------5-5-4-4------------10-10-9-9
C-------------------------------
G--------------------------------------
D---------------------------------------
A---------------------------------------


a--13-13-12-12-10-10-9-9-8-8-7-7-6-6-5-5---
E---------------------------------------
C---------------------------------------
G---------------------------------------
D---------------------------------------
A----------------------------------------

Última actualización el Lunes, 14 de Mayo de 2012 22:54
 
Odiame - Los tres reyes
Escrito por Victor Armijos   
Domingo, 04 de Marzo de 2012 11:12
EN ESTE VIDEO NOS ILUSTRA EL MAESTRO SOBRE LA PARTE RÁPIDA DEL INTERMEDIO


PARTITURA ORIGINAL DE LA INTRODUCCIÓN Y EL INTERMEDIO DE LA CANCIÓN ODIAME

REQUINTO Y ADORNOS DE LA NUEVA VERSIÓN DEL MAESTRO GILBERTO PUENTE


REQUINTO CON CAPOTRASTO EN EL SEGUNDO TRASTE
Las líneas son las cuerdas y los números los trastes, contados a partir de
la posición del capotrasto que es el traste cero.
h (hammer on) - Martillar la cuerda con la mano izquierda,
p (pull off) - Jalar la cuerda hacia afuera con la mano izquierda.
s (slide) - Deslizar los dedos hasta llegar a la posición indicada.


PRIMERA PARTE

A||----------------------------|-----------------5--5----|--4--4-----7--7----|
E||----------1-----3-----4-----|--5-----5----------------|-------------------|
C||----------2-----4-----5-----|--5-----5--------5--5----|--4--4-----7--7----|
G||----------------------------|-------------------------|-------------------|
D||----------------------------|-------------------------|-------------------|
A||----------------------------|-------------------------|-------------------|

--5--5-----8--8-----|--7--7-----10--10----|--8--8-----12--12-----|
--------------------|---------------------|----------------------|
--5--5-----9--9-----|--7--7-----10--10----|--9--9-----12--12-----|
--------------------|---------------------|----------------------|
--------------------|---------------------|----------------------|
--------------------|---------------------|----------------------|

--10--10-----13--13-----|--12----12----12----|--12----12------12------|
------------------------|--------------------|------------------------|
--10--10-----14--14-----|--12----12----12----|--12----12------12------|
------------------------|--------------------|------------------------|
------------------------|--------------------|------------------------|
------------------------|--------------------|------------------------|

--12--0--0--10--10--0--|--12--0--0--10--10--0--|--12--0--0--8-------|
-----------------------|-----------------------|--------------------|
-----------------------|-----------------------|--------------------|
-----------------------|-----------------------|--------------------|
-----------------------|-----------------------|--------------------|
-----------------------|-----------------------|--------------------|

-----8---8---8---8---8---|--------------------------|
-------------------------|------------------7-7-7-7-|
-------------------------|----------8-8-8-8---------|
-------------------------|--9-9-9-9-----------------|
-------------------------|--------------------------|
-------------------------|--------------------------|

--7-6-7-8-7-8-9-8-9-10-9-10-|--12-10-12-10----10----------------|
----------------------------|--------------12----12-9-12-9----9-|
----------------------------|------------------------------10---|
----------------------------|-----------------------------------|
----------------------------|-----------------------------------|
----------------------------|-----------------------------------|

----------------------|--0-------0-5-4-------4-7-|--5-------5-8-7-------7-10-|
-------------1--3--4--|----1---1-------5---5-----|----5---5-------8---8------|
--10-9----------------|------2-----------7-------|------5-----------9--------|
----------------------|--------------------------|---------------------------|
----------------------|--------------------------|---------------------------|
----------------------|--------------------------|---------------------------|

--8-------8-12-10----------10-13-|--12----------12----15---15-----15-----|
----8---8---------12----12-------|-----13----13----13--------------------|
------9--------------12----------|--------12-----------------------------|
---------------------------------|---------------------------------------|
---------------------------------|---------------------------------------|
---------------------------------|---------------------------------------|

--16---0-0-0---16---0---0---|--16---0-0-0---16---0---0---|
--12-----------12-----------|--12-----------12-----------|
----------------------------|----------------------------|
----------------------------|----------------------------|
----------------------------|----------------------------|
----------------------------|----------------------------|

--17---0-0-0---17---0---0---|--17---0-0-0---17----------|
--13-----------13-----------|--13-----------13----------|
----------------------------|---------------------------|
----------------------------|---------------------------|
----------------------------|---------------------------|
----------------------------|---------------------------|

--3-1-0---1-0-----0-------|--------------------------|--------------0-----|
--------3-----3-1---3-1-0-|--3-1-0-3-1-0-3-1-0-3-1-0-|--------1--------1--|
--------------------------|--------------------------|--2--------2--------|
--------------------------|--------------------------|-----2--------------|
--------------------------|--------------------------|--------------------|
--------------------------|--------------------------|--------------------|

--5-------------|
----------------|
----------------|
----------------|
----------------|
----------------|


ADORNOS DE PRIMERA PARTE

----------0---------|
-------------3-2-1--|
--------------------|
--------------------|
--------------------|
--------------------|

----------0--3-2---1h-3p-1---|
-----------------------------|
-----------------------------|
-----------------------------|
-----------------------------|
-----------------------------|

----------0---------|
-------------3-2-1--|
--------------------|
--------------------|
--------------------|
--------------------|

----------0--3-2---1h-3p-1---|
-----------------------------|
-----------------------------|
-----------------------------|
-----------------------------|
-----------------------------|

-----------------|---------------|
-----------------|---------------|
-----------------|---------------|
-----------------|---------------|
--3----2----0----|---------------|
-----------------|--0------------|

            RAZGUEO
--------0------5----|
----1-----1---5-----|
------2------5------|
--2-----------------|
--------------------|
--------------------|

-----3S5--3--0-----|-----------------|
----------------1--|-----------------|
-------------------|--2S4S2----------|
-------------------|-----------------|
-------------------|-----------------|
-------------------|-----------------|

----5----|
----5----|
----5----|
---------|
---------|
---------|

 

SEGUNDA PARTE

----------------------------|
----------1-----3-----4-----|
----------2-----4-----5-----|
----------------------------|
----------------------------|
----------------------------|

-----------------5--5----|--4--4-----7--7----|--5--5-----8--8-----|
--5-----5----------------|-------------------|--------------------|
--5-----5--------5--5----|--4--4-----7--7----|--5--5-----9--9-----|
-------------------------|-------------------|--------------------|
-------------------------|-------------------|--------------------|
-------------------------|-------------------|--------------------|

--7--7-----10--10----|--8--8-----12--12-----|--10--10-----13--13-----|
---------------------|----------------------|------------------------|
--7--7-----10--10----|--9--9-----12--12-----|--10--10-----14--14-----|
---------------------|----------------------|------------------------|
---------------------|----------------------|------------------------|
---------------------|----------------------|------------------------|

--12----12----12----|--12----12------12------|--12-0-0-10-0-0-12-0-0-10-0-0-|
--------------------|------------------------|------------------------------|
--12----12----12----|--12----12------12------|------------------------------|
--------------------|------------------------|------------------------------|
--------------------|------------------------|------------------------------|
--------------------|------------------------|------------------------------|

--12-0-0-10-0-0-12-0-0-8-0-0--|--12-0-0-8-0-0-12-0-0-8-0-0-|
------------------------------|----------------------------|
------------------------------|----------------------------|
------------------------------|----------------------------|
------------------------------|----------------------------|
------------------------------|----------------------------|

--12---------8-8-8-8-8---|--------------------------|
-------------------------|------------------7-7-7-7-|
-------------------------|----------8-8-8-8---------|
-------------------------|--9-9-9-9-----------------|
-------------------------|--------------------------|
-------------------------|--------------------------|

--7-6-7-8-7-8-9-8-9-10-9-10-|--12-10-12-10----10----------------|
----------------------------|--------------12----12-9-12-9----9-|
----------------------------|------------------------------10---|
----------------------------|-----------------------------------|
----------------------------|-----------------------------------|
----------------------------|-----------------------------------|

----------------------|--0-------0-5-4-------4-7-|--5-------5-8-7-------7-10-|
-------------1--3--4--|----1---1-------5---5-----|----5---5-------8---8------|
--10-9----------------|------2-----------7-------|------5-----------9--------|
----------------------|--------------------------|---------------------------|
----------------------|--------------------------|---------------------------|
----------------------|--------------------------|---------------------------|

--8-------8-12-10----------10-13-|--12----------12----15---15-----15-----|
----8---8---------12----12-------|-----13----13----13--------------------|
------9--------------12----------|--------12-----------------------------|
---------------------------------|---------------------------------------|
---------------------------------|---------------------------------------|
---------------------------------|---------------------------------------|

--16---0-0-0---16---0---0---|--16---0-0-0---16---0---0---|
--12-----------12-----------|--12-----------12-----------|
----------------------------|----------------------------|
----------------------------|----------------------------|
----------------------------|----------------------------|
----------------------------|----------------------------|

--17---0-0-0---17---0---0---|--17---0-0-0---17----------|
--13-----------13-----------|--13-----------13----------|
----------------------------|---------------------------|
----------------------------|---------------------------|
----------------------------|---------------------------|
----------------------------|---------------------------|

--3-1-0---1-0-----0-------|--------------------------|--------------0-----|
--------3-----3-1---3-1-0-|--3-1-0-3-1-0-3-1-0-3-1-0-|--------1--------1--|
--------------------------|--------------------------|--2--------2--------|
--------------------------|--------------------------|-----2--------------|
--------------------------|--------------------------|--------------------|
--------------------------|--------------------------|--------------------|

--5-------------|
----------------|
----------------|
----------------|
----------------|
----------------|


ADORNOS DE SEGUNDA PARTE

-------------------|-------------------|
-1--3--5s1---------|-0--1--3s0---------|
-2--4--5s2---------|-1--2--4s1---------| semi-apagados
-------------------|-------------------|
-------------------|-------------------|
-------------------|-------------------|

---5-5p0------------------|
--5--5------3s5----0s1----|
-5-------5--5------2------| semi-apagados
--------------------------|
--------------------------|
--------------------------|

-0-0----------0--3-2-1s3p0-----|
--3-3---2--3-------------------|
-------------------------------|
-------------------------------|
-------------------------------|
-------------------------------|

-----------------|---------------|
-----------------|---------------|
-----------------|---------------|
-----------------|---------------|
--3----2----0----|---------------|
-----------------|--0------------|

----------0---------|
-------------3-2-1--|
--------------------|
--------------------|
--------------------|
--------------------|

----------0--3-2---1h-3p-1---|
-----------------------------|
-----------------------------|
-----------------------------|
-----------------------------|
-----------------------------|

-----------------|---------------|
-----------------|---------------|
-----------------|---------------|
-----------------|---------------|
--3----2----0----|---------------|
-----------------|--0------------|

            RAZGUEO
--------0------5----|
----1-----1---5-----|
------2------5------|
--2-----------------|
--------------------|
--------------------|

---------------------------------|---------------------------------|
---------------------------------|---------------------------------| Semi
-----0-0-----0-0-----0-0-----0-0-|-----0-0-----0-0-----0-0-----0-0-| apagado
-----3-3-----3-3-----3-3-----3-3-|-----2-2-----2-2-----2-2-----2-2-|
--2-------2-------2-------2------|--3-------3-------3-------3------|
-3-------3-------3-------3-------|-3-------3-------3-------3-------|


---------------------------------|---------------------------------|
---------------------------------|---------------------------------| Semi
-----0-0-----0-0-----0-0-----0-0-|-----0-0-----0-0-----0-----------| apagado
-----3-3-----3-3-----3-3-----3-3-|-----2-2-----2-2-----2-----------|
--2-------2-------2-------2------|--3-------3-------3--------------|
-3-------3-------3-------3-------|-3-------3-------3---------------|


-7-10-7---7------------------------------------------------------------------|
--------9---9-6-9-6---6------------------------------------------------------|
--------------------7---7-4-7-4---4------------------------------------------|
--------------------------------6---6-3-6-3---3------------------------------|
--------------------------------------------5---5-2-5-2---2------------------|
--------------------------------------------------------4---4-1--------------|


-----------------------------------------------------------------------------|
-----------------------------------------------------------------------------|
-----------------------------------------------------------------------------|
-----------------------------------------------------------------------------|
-----------------------------------------------------------------------------|
-4---1---0h1p0h1p0h1p0h1p0h1p0h1p0h1p0h1p0h1p0-0h1p0h1p0h1p0h1p0h1p0h1p0h1p0-|


RAZGUEO FINAL

-------0---------||
------1----------||
-----2-----------||
----2------------||
---0-------------||
--0--------------||

Última actualización el Lunes, 14 de Mayo de 2012 19:45
 
« InicioPrev12PróximoFin »

Pág. 1 de 2

Conexión al portal



¿Quién está en línea?

Tenemos 103 invitados conectado(s)


Últimas noticias

Lo más popular

Trío Candilejas

Trío Candilejas

 

Quito, Ecuador

Contrataciones
099 49 48 44
2 40 83 45

4to. Festival del requinto


Quito,

Ecuador


My Links


Potenciado por Joomla!. Designed by: top joomla 1.5 theme domain name search Valid XHTML and CSS.