Todos los años se lleva a cabo en la ciudad de Quito en Ecuador el festival internacional del requinto organizado por el maestro Victor Armijos, extraordinario ejecutante de este bello intrumento.

Poquita fé - Los tres reyes
Escrito por Victor Armijos   
Domingo, 04 de Marzo de 2012 11:12




PRIMERA GUITARRA AL AIRE

E |----------------|----------------|----------------|----------------|-------|
B |-----------0----|----------------|-----------1----|--2-------------|-------|
G |--------0-------|--1-------------|--------2-------|-----3----------|-------|
D |-----0----------|-----3--0-------|-----2----------|--------4--2----|-------|
A |--2-------------|-----------2----|--3-------------|----------------|-------|
E |----------------|----------------|----------------|----------------|-------|


-------|-------|--------------------------7--7--8--5--7-------------|
-------|-------|--------------------------------------------8--8----|
-------|-------|----------------------------------------------------|
-------|-------|----------------------------------------------------|
-------|-------|----------------------------------------------------|
-------|-------|----------------------------------------------------|


----------------------------------------------------||
--10-7--8-------------------------------------------||
--------------7--7--9--6--7-------------------------||
----------------------------------------------------||
----------------------------------------------------||
----------------------------------------------------||


SEGUNDA GUITARRA AL AIRE

E |----------------|----------------|----------------|
B |----------------|----------------|----------------|
G |-----------0----|----------------|-----------2----|
D |--------0-------|--3--0----------|--------2-------|
A |-----2----------|--------2-------|--0--3----------|
E |--3-------------|-----------4----|----------------|


--------------------------------------------------------------------------------
--------------------------------------------------------------------------------
-----3--------------------------------------------------------------------------
--------------------------4-----------------------2-----------------------------
--------------------------------------------------------------------------4-----
--------------------------------------------------------------------------------


--------------------|-------|-------|-------|
--------------------|-------|-------|-------|
--------------------|-------|-------|-------|
--------------------|-------|-------|-------|
--------------------|-------|-------|-------|
--------------------|-------|-------|-------|


--------------------------3--3--5--2--3-------------|
--------------------------------------------3--3----|
----------------------------------------------------|
----------------------------------------------------|
----------------------------------------------------|
----------------------------------------------------|


----------------------------------------------------||
--5--2--3-------------------------------------------||
--------------4--4--5--3--4-------------------------||
----------------------------------------------------||
----------------------------------------------------||
----------------------------------------------------||


ADORNOS de POQUITA FE

Última actualización el Lunes, 14 de Mayo de 2012 20:15
 

Conexión al portal



¿Quién está en línea?

Tenemos 53 invitados conectado(s)


Últimas noticias

Lo más popular

Trío Candilejas

Trío Candilejas

 

Quito, Ecuador

Contrataciones
099 49 48 44
2 40 83 45

4to. Festival del requinto


Quito,

Ecuador


My Links


Potenciado por Joomla!. Designed by: top joomla 1.5 theme domain name search Valid XHTML and CSS.